ISO-10303-21;
HEADER;
FILE_DESCRIPTION (( 'STEP AP203' ),
    '1' );
FILE_NAME ('End Cap SDR17_001 115 0140 0400.step',
    '2019-12-16T11:43:33',
    ( '' ),
    ( '' ),
    'SwSTEP 2.0',
    'SolidWorks 2019',
    '' );
FILE_SCHEMA (( 'CONFIG_CONTROL_DESIGN' ));
ENDSEC;

DATA;
#1 = DIRECTION ( 'NONE',  ( 0.0000000000000000000, -1.000000000000000000, -0.0000000000000000000 ) ) ;
#2 = CARTESIAN_POINT ( 'NONE',  ( 176.3000000000000398, 0.0000000000000000000, 0.0000000000000000000 ) ) ;
#3 = PLANE ( 'NONE',  #143 ) ;
#4 = DIRECTION ( 'NONE',  ( -0.0000000000000000000, -1.000000000000000000, -0.0000000000000000000 ) ) ;
#5 = ADVANCED_FACE ( 'NONE', ( #106 ), #103, .F. ) ;
#6 = CARTESIAN_POINT ( 'NONE',  ( 0.0000000000000000000, 0.0000000000000000000, 0.0000000000000000000 ) ) ;
#7 = DIRECTION ( 'NONE',  ( 0.0000000000000000000, 0.0000000000000000000, 1.000000000000000000 ) ) ;
#8 = LOCAL_TIME ( 14, 43, 33.00000000000000000, #111 ) ;
#9 = CARTESIAN_POINT ( 'NONE',  ( 0.0000000000000000000, 197.7455353892083565, 0.0000000000000000000 ) ) ;
#10 = CYLINDRICAL_SURFACE ( 'NONE', #81, 176.3000000000000114 ) ;
#11 = DIRECTION ( 'NONE',  ( -1.000000000000000000, 0.0000000000000000000, 0.0000000000000000000 ) ) ;
#12 = CIRCLE ( 'NONE', #102, 800.0000000000000000 ) ;
#13 = CC_DESIGN_PERSON_AND_ORGANIZATION_ASSIGNMENT ( #211, #277, ( #161 ) ) ;
#14 = DIRECTION ( 'NONE',  ( 1.000000000000000000, 0.0000000000000000000, -1.224646799147353207E-16 ) ) ;
#15 = DIRECTION ( 'NONE',  ( 0.0000000000000000000, 0.0000000000000000000, -1.000000000000000000 ) ) ;
#16 = DIRECTION ( 'NONE',  ( -0.0000000000000000000, -1.000000000000000000, -0.0000000000000000000 ) ) ;
#17 = CARTESIAN_POINT ( 'NONE',  ( 0.0000000000000000000, -578.5271775779237942, 0.0000000000000000000 ) ) ;
#18 = AXIS2_PLACEMENT_3D ( 'NONE', #98, #228, #287 ) ;
#19 = APPLICATION_PROTOCOL_DEFINITION ( 'international standard', 'config_control_design', 1994, #227 ) ;
#20 = ORIENTED_EDGE ( 'NONE', *, *, #297, .T. ) ;
#21 = DATE_TIME_ROLE ( 'creation_date' ) ;
#22 = CARTESIAN_POINT ( 'NONE',  ( 0.0000000000000000000, -578.5271775779237942, -6.607458513394784738 ) ) ;
#23 = PERSON_AND_ORGANIZATION ( #104, #169 ) ;
#24 = AXIS2_PLACEMENT_3D ( 'NONE', #6, #4, #212 ) ;
#25 = AXIS2_PLACEMENT_3D ( 'NONE', #234, #290, #77 ) ;
#26 = SHAPE_DEFINITION_REPRESENTATION ( #283, #36 ) ;
#27 = FACE_OUTER_BOUND ( 'NONE', #120, .T. ) ;
#28 = CARTESIAN_POINT ( 'NONE',  ( 0.0000000000000000000, 0.0000000000000000000, -176.3000000000000398 ) ) ;
#29 = CARTESIAN_POINT ( 'NONE',  ( 2.159052306896783691E-14, 178.9999999999997158, 176.2999999999999829 ) ) ;
#30 = ADVANCED_FACE ( 'NONE', ( #91 ), #199, .F. ) ;
#31 = AXIS2_PLACEMENT_3D ( 'NONE', #45, #172, #261 ) ;
#32 = DIRECTION ( 'NONE',  ( -0.0000000000000000000, -1.000000000000000000, -0.0000000000000000000 ) ) ;
#33 = FACE_OUTER_BOUND ( 'NONE', #141, .T. ) ;
#34 = CARTESIAN_POINT ( 'NONE',  ( 0.0000000000000000000, 0.0000000000000000000, -176.3000000000000114 ) ) ;
#35 = LINE ( 'NONE', #34, #168 ) ;
#36 = ADVANCED_BREP_SHAPE_REPRESENTATION ( 'End Cap SDR17_001 115 0140 0400', ( #105, #25 ), #75 ) ;
#37 = CIRCLE ( 'NONE', #31, 200.0000000000000284 ) ;
#38 = AXIS2_PLACEMENT_3D ( 'NONE', #100, #205, #276 ) ;
#39 = CARTESIAN_POINT ( 'NONE',  ( -4.163336342344337027E-14, 221.4455353892085157, 0.0000000000000000000 ) ) ;
#40 = DIRECTION ( 'NONE',  ( -1.000000000000000000, 0.0000000000000000000, 0.0000000000000000000 ) ) ;
#41 = EDGE_CURVE ( 'NONE', #125, #229, #82, .T. ) ;
#42 = DIRECTION ( 'NONE',  ( -0.0000000000000000000, -1.000000000000000000, -0.0000000000000000000 ) ) ;
#43 = DIRECTION ( 'NONE',  ( 0.0000000000000000000, 0.0000000000000000000, -1.000000000000000000 ) ) ;
#44 = CIRCLE ( 'NONE', #38, 199.9999999999999432 ) ;
#45 = CARTESIAN_POINT ( 'NONE',  ( 0.0000000000000000000, 0.0000000000000000000, 0.0000000000000000000 ) ) ;
#46 = DIRECTION ( 'NONE',  ( -0.0000000000000000000, -1.000000000000000000, -0.0000000000000000000 ) ) ;
#47 = CARTESIAN_POINT ( 'NONE',  ( 0.0000000000000000000, 0.0000000000000000000, 0.0000000000000000000 ) ) ;
#48 = AXIS2_PLACEMENT_3D ( 'NONE', #231, #288, #73 ) ;
#49 = COORDINATED_UNIVERSAL_TIME_OFFSET ( 3, 0, .AHEAD. ) ;
#50 = FACE_BOUND ( 'NONE', #122, .T. ) ;
#51 = CYLINDRICAL_SURFACE ( 'NONE', #163, 200.0000000000000000 ) ;
#52 = PERSON_AND_ORGANIZATION ( #104, #169 ) ;
#53 = FACE_OUTER_BOUND ( 'NONE', #252, .T. ) ;
#54 = CC_DESIGN_PERSON_AND_ORGANIZATION_ASSIGNMENT ( #23, #152, ( #60 ) ) ;
#55 = CALENDAR_DATE ( 2019, 16, 12 ) ;
#56 = TOROIDAL_SURFACE ( 'NONE', #48, 6.607458513394784738, 800.0000000000000000 ) ;
#57 = AXIS2_PLACEMENT_3D ( 'NONE', #260, #14, #139 ) ;
#58 = CARTESIAN_POINT ( 'NONE',  ( 0.0000000000000000000, 0.0000000000000000000, -200.0000000000000284 ) ) ;
#59 = DIRECTION ( 'NONE',  ( -0.0000000000000000000, -1.000000000000000000, -0.0000000000000000000 ) ) ;
#60 = SECURITY_CLASSIFICATION ( '', '', #267 ) ;
#61 = EDGE_CURVE ( 'NONE', #128, #229, #185, .T. ) ;
#62 = CARTESIAN_POINT ( 'NONE',  ( 0.0000000000000000000, 0.0000000000000000000, -200.0000000000000000 ) ) ;
#63 = LINE ( 'NONE', #62, #175 ) ;
#64 = AXIS2_PLACEMENT_3D ( 'NONE', #275, #42, #170 ) ;
#65 = DIRECTION ( 'NONE',  ( -0.0000000000000000000, -1.000000000000000000, -0.0000000000000000000 ) ) ;
#66 = CARTESIAN_POINT ( 'NONE',  ( 2.449293598294706434E-14, 0.0000000000000000000, 200.0000000000000000 ) ) ;
#67 = CIRCLE ( 'NONE', #57, 776.3008330572357636 ) ;
#68 = DIRECTION ( 'NONE',  ( -0.0000000000000000000, -1.000000000000000000, -0.0000000000000000000 ) ) ;
#69 = DIRECTION ( 'NONE',  ( 1.000000000000000000, 0.0000000000000000000, -1.224646799147353207E-16 ) ) ;
#70 = EDGE_CURVE ( 'NONE', #190, #219, #72, .T. ) ;
#71 = FACE_OUTER_BOUND ( 'NONE', #223, .T. ) ;
#72 = LINE ( 'NONE', #66, #176 ) ;
#73 = DIRECTION ( 'NONE',  ( 0.0000000000000000000, 0.0000000000000000000, -1.000000000000000000 ) ) ;
#74 = DIRECTION ( 'NONE',  ( 0.0000000000000000000, 0.0000000000000000000, -1.000000000000000000 ) ) ;
#75 =( GEOMETRIC_REPRESENTATION_CONTEXT ( 3 ) GLOBAL_UNCERTAINTY_ASSIGNED_CONTEXT ( ( #123 ) ) GLOBAL_UNIT_ASSIGNED_CONTEXT ( ( #250, #233, #207 ) ) REPRESENTATION_CONTEXT ( 'NONE', 'WORKASPACE' ) );
#76 = LOCAL_TIME ( 14, 43, 33.00000000000000000, #108 ) ;
#77 = DIRECTION ( 'NONE',  ( 1.000000000000000000, 0.0000000000000000000, 0.0000000000000000000 ) ) ;
#78 = DIRECTION ( 'NONE',  ( -0.0000000000000000000, -1.000000000000000000, -0.0000000000000000000 ) ) ;
#79 = APPROVAL_DATE_TIME ( #291, #84 ) ;
#80 = CARTESIAN_POINT ( 'NONE',  ( 2.159052306896784007E-14, 0.0000000000000000000, 176.3000000000000114 ) ) ;
#81 = AXIS2_PLACEMENT_3D ( 'NONE', #136, #248, #300 ) ;
#82 = LINE ( 'NONE', #80, #186 ) ;
#83 = APPROVAL_DATE_TIME ( #294, #255 ) ;
#84 = APPROVAL ( #251, 'BELÝRTÝLMEMÝÞ' ) ;
#85 = DIRECTION ( 'NONE',  ( 0.0000000000000000000, 0.0000000000000000000, -1.000000000000000000 ) ) ;
#86 = APPROVAL_STATUS ( 'not_yet_approved' ) ;
#87 = DIRECTION ( 'NONE',  ( -0.0000000000000000000, -1.000000000000000000, -0.0000000000000000000 ) ) ;
#88 = CIRCLE ( 'NONE', #18, 176.3000000000000398 ) ;
#89 = CLOSED_SHELL ( 'NONE', ( #30, #196, #273, #266, #5, #180, #112, #292, #132 ) ) ;
#90 = CARTESIAN_POINT ( 'NONE',  ( 0.0000000000000000000, -578.5271775779237942, 0.0000000000000000000 ) ) ;
#91 = FACE_OUTER_BOUND ( 'NONE', #305, .T. ) ;
#92 = AXIS2_PLACEMENT_3D ( 'NONE', #274, #40, #167 ) ;
#93 = DIRECTION ( 'NONE',  ( 0.0000000000000000000, 0.0000000000000000000, -1.000000000000000000 ) ) ;
#94 = DIRECTION ( 'NONE',  ( 0.0000000000000000000, 0.0000000000000000000, -1.000000000000000000 ) ) ;
#95 = CIRCLE ( 'NONE', #92, 800.0000000000000000 ) ;
#96 = EDGE_CURVE ( 'NONE', #232, #109, #63, .T. ) ;
#97 = DIRECTION ( 'NONE',  ( -0.0000000000000000000, -1.000000000000000000, -0.0000000000000000000 ) ) ;
#98 = CARTESIAN_POINT ( 'NONE',  ( 0.0000000000000000000, 0.0000000000000000000, 0.0000000000000000000 ) ) ;
#99 = DIRECTION ( 'NONE',  ( -0.0000000000000000000, -1.000000000000000000, -0.0000000000000000000 ) ) ;
#100 = CARTESIAN_POINT ( 'NONE',  ( 0.0000000000000000000, 197.7455353892083565, 0.0000000000000000000 ) ) ;
#101 = CARTESIAN_POINT ( 'NONE',  ( 0.0000000000000000000, 0.0000000000000000000, 0.0000000000000000000 ) ) ;
#102 = AXIS2_PLACEMENT_3D ( 'NONE', #286, #69, #201 ) ;
#103 = CYLINDRICAL_SURFACE ( 'NONE', #194, 176.3000000000000114 ) ;
#104 = PERSON ( 'BELÝRTÝLMEMÝÞ', 'BELÝRTÝLMEMÝÞ', 'BELÝRTÝLMEMÝÞ', ('BELÝRTÝLMEMÝÞ'), ('BELÝRTÝLMEMÝÞ'), ('BELÝRTÝLMEMÝÞ') ) ;
#105 = MANIFOLD_SOLID_BREP ( 'Döndür1', #89 ) ;
#106 = FACE_OUTER_BOUND ( 'NONE', #140, .T. ) ;
#107 = APPROVAL_PERSON_ORGANIZATION ( #295, #271, #217 ) ;
#108 = COORDINATED_UNIVERSAL_TIME_OFFSET ( 3, 0, .AHEAD. ) ;
#109 = VERTEX_POINT ( 'NONE', #58 ) ;
#110 = ORIENTED_EDGE ( 'NONE', *, *, #138, .F. ) ;
#111 = COORDINATED_UNIVERSAL_TIME_OFFSET ( 3, 0, .AHEAD. ) ;
#112 = ADVANCED_FACE ( 'NONE', ( #53 ), #51, .T. ) ;
#113 = AXIS2_PLACEMENT_3D ( 'NONE', #299, #97, #226 ) ;
#114 = CIRCLE ( 'NONE', #113, 176.2999999999999829 ) ;
#115 = ORIENTED_EDGE ( 'NONE', *, *, #279, .T. ) ;
#116 = DATE_AND_TIME ( #307, #256 ) ;
#117 = ORIENTED_EDGE ( 'NONE', *, *, #221, .T. ) ;
#118 = EDGE_CURVE ( 'NONE', #222, #128, #35, .T. ) ;
#119 = DIRECTION ( 'NONE',  ( 0.0000000000000000000, 0.0000000000000000000, -1.000000000000000000 ) ) ;
#120 = EDGE_LOOP ( 'NONE', ( #210, #213, #216 ) ) ;
#121 = AXIS2_PLACEMENT_3D ( 'NONE', #9, #133, #246 ) ;
#122 = EDGE_LOOP ( 'NONE', ( #184, #189 ) ) ;
#123 = UNCERTAINTY_MEASURE_WITH_UNIT (LENGTH_MEASURE( 1.000000000000000082E-05 ), #250, 'distance_accuracy_value', 'NONE');
#124 = EDGE_LOOP ( 'NONE', ( #179, #182 ) ) ;
#125 = VERTEX_POINT ( 'NONE', #29 ) ;
#126 = CC_DESIGN_PERSON_AND_ORGANIZATION_ASSIGNMENT ( #52, #183, ( #289 ) ) ;
#127 = CIRCLE ( 'NONE', #121, 199.9999999999999432 ) ;
#128 = VERTEX_POINT ( 'NONE', #28 ) ;
#129 = AXIS2_PLACEMENT_3D ( 'NONE', #285, #68, #200 ) ;
#130 = LOCAL_TIME ( 14, 43, 33.00000000000000000, #49 ) ;
#131 = CARTESIAN_POINT ( 'NONE',  ( -6.983831162283657337E-14, 197.7455353892083565, 0.0000000000000000000 ) ) ;
#132 = ADVANCED_FACE ( 'NONE', ( #27 ), #158, .F. ) ;
#133 = DIRECTION ( 'NONE',  ( -0.0000000000000000000, -1.000000000000000000, -0.0000000000000000000 ) ) ;
#134 = CIRCLE ( 'NONE', #129, 176.2999999999999829 ) ;
#135 = AXIS2_PLACEMENT_3D ( 'NONE', #245, #298, #94 ) ;
#136 = CARTESIAN_POINT ( 'NONE',  ( 0.0000000000000000000, 0.0000000000000000000, 0.0000000000000000000 ) ) ;
#137 = ORIENTED_EDGE ( 'NONE', *, *, #258, .F. ) ;
#138 = EDGE_CURVE ( 'NONE', #218, #222, #154, .T. ) ;
#139 = DIRECTION ( 'NONE',  ( -1.224646799147353207E-16, 0.0000000000000000000, -1.000000000000000000 ) ) ;
#140 = EDGE_LOOP ( 'NONE', ( #162, #164, #173, #174 ) ) ;
#141 = EDGE_LOOP ( 'NONE', ( #137, #144, #264 ) ) ;
#142 = TOROIDAL_SURFACE ( 'NONE', #135, 6.607458513394784738, 800.0000000000000000 ) ;
#143 = AXIS2_PLACEMENT_3D ( 'NONE', #2, #1, #119 ) ;
#144 = ORIENTED_EDGE ( 'NONE', *, *, #247, .T. ) ;
#145 = PERSON_AND_ORGANIZATION ( #104, #169 ) ;
#146 = ORIENTED_EDGE ( 'NONE', *, *, #70, .T. ) ;
#147 = ORIENTED_EDGE ( 'NONE', *, *, #148, .F. ) ;
#148 = EDGE_CURVE ( 'NONE', #109, #219, #151, .T. ) ;
#149 = PERSON_AND_ORGANIZATION ( #104, #169 ) ;
#150 = ORIENTED_EDGE ( 'NONE', *, *, #96, .F. ) ;
#151 = CIRCLE ( 'NONE', #24, 200.0000000000000284 ) ;
#152 = PERSON_AND_ORGANIZATION_ROLE ( 'classification_officer' ) ;
#153 = AXIS2_PLACEMENT_3D ( 'NONE', #22, #11, #7 ) ;
#154 = CIRCLE ( 'NONE', #153, 776.3008330572357636 ) ;
#155 = ORIENTED_EDGE ( 'NONE', *, *, #221, .F. ) ;
#156 = ORIENTED_EDGE ( 'NONE', *, *, #41, .T. ) ;
#157 = AXIS2_PLACEMENT_3D ( 'NONE', #17, #16, #15 ) ;
#158 = TOROIDAL_SURFACE ( 'NONE', #157, 6.607458513394784738, 776.3008330572357636 ) ;
#159 = ORIENTED_EDGE ( 'NONE', *, *, #270, .T. ) ;
#160 = ORIENTED_EDGE ( 'NONE', *, *, #118, .F. ) ;
#161 = PRODUCT_DEFINITION ( 'BÝLÝNMEYEN', '', #289, #296 ) ;
#162 = ORIENTED_EDGE ( 'NONE', *, *, #41, .F. ) ;
#163 = AXIS2_PLACEMENT_3D ( 'NONE', #47, #46, #43 ) ;
#164 = ORIENTED_EDGE ( 'NONE', *, *, #243, .F. ) ;
#165 = CC_DESIGN_APPROVAL ( #271, ( #60 ) ) ;
#166 = CARTESIAN_POINT ( 'NONE',  ( 2.159052306896784638E-14, 0.0000000000000000000, 176.3000000000000398 ) ) ;
#167 = DIRECTION ( 'NONE',  ( 0.0000000000000000000, 0.0000000000000000000, 1.000000000000000000 ) ) ;
#168 = VECTOR ( 'NONE', #32, 1000.000000000000000 ) ;
#169 = ORGANIZATION ( 'BELÝRTÝLMEMÝÞ', 'BELÝRTÝLMEMÝÞ', '' ) ;
#170 = DIRECTION ( 'NONE',  ( 0.0000000000000000000, 0.0000000000000000000, -1.000000000000000000 ) ) ;
#171 = EDGE_LOOP ( 'NONE', ( #155, #156, #159, #160 ) ) ;
#172 = DIRECTION ( 'NONE',  ( -0.0000000000000000000, -1.000000000000000000, -0.0000000000000000000 ) ) ;
#173 = ORIENTED_EDGE ( 'NONE', *, *, #118, .T. ) ;
#174 = ORIENTED_EDGE ( 'NONE', *, *, #61, .T. ) ;
#175 = VECTOR ( 'NONE', #59, 1000.000000000000000 ) ;
#176 = VECTOR ( 'NONE', #65, 1000.000000000000000 ) ;
#177 = AXIS2_PLACEMENT_3D ( 'NONE', #237, #78, #74 ) ;
#178 = PERSON_AND_ORGANIZATION ( #104, #169 ) ;
#179 = ORIENTED_EDGE ( 'NONE', *, *, #148, .T. ) ;
#180 = ADVANCED_FACE ( 'NONE', ( #278, #50 ), #3, .T. ) ;
#181 = CALENDAR_DATE ( 2019, 16, 12 ) ;
#182 = ORIENTED_EDGE ( 'NONE', *, *, #302, .T. ) ;
#183 = PERSON_AND_ORGANIZATION_ROLE ( 'design_supplier' ) ;
#184 = ORIENTED_EDGE ( 'NONE', *, *, #61, .F. ) ;
#185 = CIRCLE ( 'NONE', #177, 176.3000000000000398 ) ;
#186 = VECTOR ( 'NONE', #293, 1000.000000000000000 ) ;
#187 = DATE_AND_TIME ( #55, #282 ) ;
#188 = AXIS2_PLACEMENT_3D ( 'NONE', #90, #87, #85 ) ;
#189 = ORIENTED_EDGE ( 'NONE', *, *, #270, .F. ) ;
#190 = VERTEX_POINT ( 'NONE', #242 ) ;
#191 = APPROVAL_PERSON_ORGANIZATION ( #149, #255, #306 ) ;
#192 = PRODUCT ( 'End Cap SDR17_001 115 0140 0400', 'End Cap SDR17_001 115 0140 0400', '', ( #209 ) ) ;
#193 = ORIENTED_EDGE ( 'NONE', *, *, #70, .F. ) ;
#194 = AXIS2_PLACEMENT_3D ( 'NONE', #101, #99, #93 ) ;
#195 = ORIENTED_EDGE ( 'NONE', *, *, #241, .T. ) ;
#196 = ADVANCED_FACE ( 'NONE', ( #33 ), #142, .T. ) ;
#197 = ORIENTED_EDGE ( 'NONE', *, *, #96, .T. ) ;
#198 = ORIENTED_EDGE ( 'NONE', *, *, #302, .F. ) ;
#199 = TOROIDAL_SURFACE ( 'NONE', #188, 6.607458513394784738, 776.3008330572357636 ) ;
#200 = DIRECTION ( 'NONE',  ( 0.0000000000000000000, 0.0000000000000000000, -1.000000000000000000 ) ) ;
#201 = DIRECTION ( 'NONE',  ( -1.224646799147353207E-16, 0.0000000000000000000, -1.000000000000000000 ) ) ;
#202 = CYLINDRICAL_SURFACE ( 'NONE', #64, 200.0000000000000000 ) ;
#203 = ORIENTED_EDGE ( 'NONE', *, *, #247, .F. ) ;
#204 = CC_DESIGN_PERSON_AND_ORGANIZATION_ASSIGNMENT ( #215, #280, ( #289 ) ) ;
#205 = DIRECTION ( 'NONE',  ( -0.0000000000000000000, -1.000000000000000000, -0.0000000000000000000 ) ) ;
#206 = ORIENTED_EDGE ( 'NONE', *, *, #258, .T. ) ;
#207 =( NAMED_UNIT ( * ) SI_UNIT ( $, .STERADIAN. ) SOLID_ANGLE_UNIT ( ) );
#208 = ORIENTED_EDGE ( 'NONE', *, *, #241, .F. ) ;
#209 = MECHANICAL_CONTEXT ( 'NONE', #214, 'mechanical' ) ;
#210 = ORIENTED_EDGE ( 'NONE', *, *, #279, .F. ) ;
#211 = PERSON_AND_ORGANIZATION ( #104, #169 ) ;
#212 = DIRECTION ( 'NONE',  ( 0.0000000000000000000, 0.0000000000000000000, -1.000000000000000000 ) ) ;
#213 = ORIENTED_EDGE ( 'NONE', *, *, #138, .T. ) ;
#214 = APPLICATION_CONTEXT ( 'configuration controlled 3d designs of mechanical parts and assemblies' ) ;
#215 = PERSON_AND_ORGANIZATION ( #104, #169 ) ;
#216 = ORIENTED_EDGE ( 'NONE', *, *, #243, .T. ) ;
#217 = APPROVAL_ROLE ( '' ) ;
#218 = VERTEX_POINT ( 'NONE', #131 ) ;
#219 = VERTEX_POINT ( 'NONE', #225 ) ;
#220 = EDGE_LOOP ( 'NONE', ( #203, #206, #208 ) ) ;
#221 = EDGE_CURVE ( 'NONE', #125, #222, #134, .T. ) ;
#222 = VERTEX_POINT ( 'NONE', #272 ) ;
#223 = EDGE_LOOP ( 'NONE', ( #20, #146, #147, #150 ) ) ;
#224 = VERTEX_POINT ( 'NONE', #39 ) ;
#225 = CARTESIAN_POINT ( 'NONE',  ( 2.449293598294707065E-14, 0.0000000000000000000, 200.0000000000000568 ) ) ;
#226 = DIRECTION ( 'NONE',  ( 0.0000000000000000000, 0.0000000000000000000, -1.000000000000000000 ) ) ;
#227 = APPLICATION_CONTEXT ( 'configuration controlled 3d designs of mechanical parts and assemblies' ) ;
#228 = DIRECTION ( 'NONE',  ( -0.0000000000000000000, -1.000000000000000000, -0.0000000000000000000 ) ) ;
#229 = VERTEX_POINT ( 'NONE', #166 ) ;
#230 = CC_DESIGN_PERSON_AND_ORGANIZATION_ASSIGNMENT ( #178, #263, ( #192 ) ) ;
#231 = CARTESIAN_POINT ( 'NONE',  ( 0.0000000000000000000, -578.5271775779237942, 0.0000000000000000000 ) ) ;
#232 = VERTEX_POINT ( 'NONE', #257 ) ;
#233 =( NAMED_UNIT ( * ) PLANE_ANGLE_UNIT ( ) SI_UNIT ( $, .RADIAN. ) );
#234 = CARTESIAN_POINT ( 'NONE',  ( 0.0000000000000000000, 0.0000000000000000000, 0.0000000000000000000 ) ) ;
#235 = CC_DESIGN_APPROVAL ( #255, ( #289 ) ) ;
#236 = CALENDAR_DATE ( 2019, 16, 12 ) ;
#237 = CARTESIAN_POINT ( 'NONE',  ( 0.0000000000000000000, 0.0000000000000000000, 0.0000000000000000000 ) ) ;
#238 = CALENDAR_DATE ( 2019, 16, 12 ) ;
#239 = DATE_TIME_ROLE ( 'classification_date' ) ;
#240 = PRODUCT_RELATED_PRODUCT_CATEGORY ( 'detail', '', ( #192 ) ) ;
#241 = EDGE_CURVE ( 'NONE', #190, #232, #127, .T. ) ;
#242 = CARTESIAN_POINT ( 'NONE',  ( 2.449293598294706119E-14, 197.7455353892083565, 199.9999999999999432 ) ) ;
#243 = EDGE_CURVE ( 'NONE', #222, #125, #114, .T. ) ;
#244 = APPROVAL_PERSON_ORGANIZATION ( #145, #84, #304 ) ;
#245 = CARTESIAN_POINT ( 'NONE',  ( 0.0000000000000000000, -578.5271775779237942, 0.0000000000000000000 ) ) ;
#246 = DIRECTION ( 'NONE',  ( 0.0000000000000000000, 0.0000000000000000000, -1.000000000000000000 ) ) ;
#247 = EDGE_CURVE ( 'NONE', #224, #190, #12, .T. ) ;
#248 = DIRECTION ( 'NONE',  ( -0.0000000000000000000, -1.000000000000000000, -0.0000000000000000000 ) ) ;
#249 = FACE_OUTER_BOUND ( 'NONE', #220, .T. ) ;
#250 =( LENGTH_UNIT ( ) NAMED_UNIT ( * ) SI_UNIT ( .MILLI., .METRE. ) );
#251 = APPROVAL_STATUS ( 'not_yet_approved' ) ;
#252 = EDGE_LOOP ( 'NONE', ( #193, #195, #197, #198 ) ) ;
#253 = APPROVAL_STATUS ( 'not_yet_approved' ) ;
#254 = COORDINATED_UNIVERSAL_TIME_OFFSET ( 3, 0, .AHEAD. ) ;
#255 = APPROVAL ( #253, 'BELÝRTÝLMEMÝÞ' ) ;
#256 = LOCAL_TIME ( 14, 43, 33.00000000000000000, #254 ) ;
#257 = CARTESIAN_POINT ( 'NONE',  ( 0.0000000000000000000, 197.7455353892083565, -199.9999999999999432 ) ) ;
#258 = EDGE_CURVE ( 'NONE', #224, #232, #95, .T. ) ;
#259 = FACE_OUTER_BOUND ( 'NONE', #171, .T. ) ;
#260 = CARTESIAN_POINT ( 'NONE',  ( 8.091802918927851778E-16, -578.5271775779237942, 6.607458513394784738 ) ) ;
#261 = DIRECTION ( 'NONE',  ( 0.0000000000000000000, 0.0000000000000000000, -1.000000000000000000 ) ) ;
#262 = APPLICATION_PROTOCOL_DEFINITION ( 'international standard', 'config_control_design', 1994, #214 ) ;
#263 = PERSON_AND_ORGANIZATION_ROLE ( 'design_owner' ) ;
#264 = ORIENTED_EDGE ( 'NONE', *, *, #297, .F. ) ;
#265 = DATE_AND_TIME ( #181, #130 ) ;
#266 = ADVANCED_FACE ( 'NONE', ( #259 ), #10, .F. ) ;
#267 = SECURITY_CLASSIFICATION_LEVEL ( 'unclassified' ) ;
#268 = APPROVAL_DATE_TIME ( #187, #271 ) ;
#269 = CC_DESIGN_APPROVAL ( #84, ( #161 ) ) ;
#270 = EDGE_CURVE ( 'NONE', #229, #128, #88, .T. ) ;
#271 = APPROVAL ( #86, 'BELÝRTÝLMEMÝÞ' ) ;
#272 = CARTESIAN_POINT ( 'NONE',  ( 0.0000000000000000000, 178.9999999999997158, -176.2999999999999829 ) ) ;
#273 = ADVANCED_FACE ( 'NONE', ( #71 ), #202, .T. ) ;
#274 = CARTESIAN_POINT ( 'NONE',  ( 0.0000000000000000000, -578.5271775779237942, -6.607458513394784738 ) ) ;
#275 = CARTESIAN_POINT ( 'NONE',  ( 0.0000000000000000000, 0.0000000000000000000, 0.0000000000000000000 ) ) ;
#276 = DIRECTION ( 'NONE',  ( 0.0000000000000000000, 0.0000000000000000000, -1.000000000000000000 ) ) ;
#277 = PERSON_AND_ORGANIZATION_ROLE ( 'creator' ) ;
#278 = FACE_OUTER_BOUND ( 'NONE', #124, .T. ) ;
#279 = EDGE_CURVE ( 'NONE', #218, #125, #67, .T. ) ;
#280 = PERSON_AND_ORGANIZATION_ROLE ( 'creator' ) ;
#281 = COORDINATED_UNIVERSAL_TIME_OFFSET ( 3, 0, .AHEAD. ) ;
#282 = LOCAL_TIME ( 14, 43, 33.00000000000000000, #281 ) ;
#283 = PRODUCT_DEFINITION_SHAPE ( 'NONE', 'NONE',  #161 ) ;
#284 = CC_DESIGN_DATE_AND_TIME_ASSIGNMENT ( #265, #21, ( #161 ) ) ;
#285 = CARTESIAN_POINT ( 'NONE',  ( 0.0000000000000000000, 178.9999999999997158, 0.0000000000000000000 ) ) ;
#286 = CARTESIAN_POINT ( 'NONE',  ( 8.091802918927851778E-16, -578.5271775779237942, 6.607458513394784738 ) ) ;
#287 = DIRECTION ( 'NONE',  ( 0.0000000000000000000, 0.0000000000000000000, -1.000000000000000000 ) ) ;
#288 = DIRECTION ( 'NONE',  ( -0.0000000000000000000, -1.000000000000000000, -0.0000000000000000000 ) ) ;
#289 = PRODUCT_DEFINITION_FORMATION_WITH_SPECIFIED_SOURCE ( 'HERHANGÝ', '', #192, .NOT_KNOWN. ) ;
#290 = DIRECTION ( 'NONE',  ( 0.0000000000000000000, 0.0000000000000000000, 1.000000000000000000 ) ) ;
#291 = DATE_AND_TIME ( #236, #76 ) ;
#292 = ADVANCED_FACE ( 'NONE', ( #249 ), #56, .T. ) ;
#293 = DIRECTION ( 'NONE',  ( -0.0000000000000000000, -1.000000000000000000, -0.0000000000000000000 ) ) ;
#294 = DATE_AND_TIME ( #238, #8 ) ;
#295 = PERSON_AND_ORGANIZATION ( #104, #169 ) ;
#296 = DESIGN_CONTEXT ( 'detailed design', #227, 'design' ) ;
#297 = EDGE_CURVE ( 'NONE', #232, #190, #44, .T. ) ;
#298 = DIRECTION ( 'NONE',  ( -0.0000000000000000000, -1.000000000000000000, -0.0000000000000000000 ) ) ;
#299 = CARTESIAN_POINT ( 'NONE',  ( 0.0000000000000000000, 178.9999999999997158, 0.0000000000000000000 ) ) ;
#300 = DIRECTION ( 'NONE',  ( 0.0000000000000000000, 0.0000000000000000000, -1.000000000000000000 ) ) ;
#301 = CC_DESIGN_DATE_AND_TIME_ASSIGNMENT ( #116, #239, ( #60 ) ) ;
#302 = EDGE_CURVE ( 'NONE', #219, #109, #37, .T. ) ;
#303 = CC_DESIGN_SECURITY_CLASSIFICATION ( #60, ( #289 ) ) ;
#304 = APPROVAL_ROLE ( '' ) ;
#305 = EDGE_LOOP ( 'NONE', ( #110, #115, #117 ) ) ;
#306 = APPROVAL_ROLE ( '' ) ;
#307 = CALENDAR_DATE ( 2019, 16, 12 ) ;
ENDSEC;
END-ISO-10303-21;
